Master the Best Whisky in the Jar Tabs: Ultimate Guitar Guide

master the best whisky in the jar tabs ultimate guitar guide

Tablaturas de Whisky in the Jar para guitarra

Introducción

El famoso tema "Whisky in the Jar" es un clásico del rock que ha sido versionado por numerosas bandas a lo largo de los años. Interpretada originalmente por Thin Lizzy, esta canción se ha convertido en un himno para los amantes del rock y la guitarra. En este artículo, te presentamos las tablaturas de guitarra para que puedas aprender a tocar esta icónica canción.

Tablaturas

Si estás deseando aprender a tocar "Whisky in the Jar" en la guitarra, estás en el lugar correcto. A continuación, te mostraremos las tablaturas de los acordes principales utilizados en esta canción. Recuerda que las tablaturas indican la posición de los dedos en el diapasón, así como las cuerdas a tocar. ¡Asegúrate de afinar bien tu guitarra antes de empezar!

Primer verso:
E|-------------------|-----------------|----------------|---------------
B|-------------------|-----------------|----------------|---------------
G|-------------------|-----------------|----------------|---------------
D|--------0----------|------0----------|--------0-------|----4-2-0-----
A|--2-4-5---5-4-2-0-|-2-4-5---5-4-2-0-|--2-4-5---5-4-0-|-2------------
E|-------------------|-----------------|----------------|-0------------

Coro:
E|-------------------|-----------------|----------------|---------------
B|-------------------|-----------------|----------------|---------------
G|--------2----------|------2----------|--------2-------|----4-2-0-----
D|--2-4-5---5-4-2-0-|-2-4-5---5-4-2-0-|--2-4-5---5-4-0-|-2------------
A|-------------------|-----------------|----------------|-0------------
E|-------------------|-----------------|----------------|---------------

Puente:
E|---------------------------------|----------------|-------------
B|---------------------------------|----------------|-------------
G|---------------------------------|----------------|-------------
D|--2---2-4-2---------------0------|--------0-------|----4-2-0---
A|--2-0-------4-5-4-2-0-2-4---5-4-|-2-4-5---5-4-0-|-2-----------
E|---------------------------------|----------------|-0------------

Estas son solo algunas de las partes más destacadas de "Whisky in the Jar" en la guitarra. Te animamos a explorar y aprender la canción completa, ya que tiene muchos otros acordes y variantes interesantes. Con práctica y dedicación, podrás dominar este clásico del rock y deleitar a tus amigos con tu talento en la guitarra.

Conclusión

Las tablaturas de guitarra son una excelente herramienta para aprender a tocar nuestras canciones favoritas. En este caso, hemos presentado las tablaturas de "Whisky in the Jar", un clásico del rock que no puede faltar en el repertorio de todo guitarrista. Así que, sin más, ¡a agarrar tu guitarra y empezar a tocar este emblemático tema!

Te puede interesar:  Descubre los mejores tragos con whisky: recetas y consejos imprescindibles

Aprende a tocar Whisky in the Jar con estas tabs para guitarra

Introducción:

Si eres un amante de la música folk y te encanta tocar la guitarra, seguramente has escuchado la famosa canción "Whisky in the Jar". Interpretada por numerosos artistas a lo largo de los años, esta canción cuenta la historia de un forajido que es traicionado por su amante. Si quieres aprender a tocar esta icónica melodía en la guitarra, estás en el lugar correcto. Aquí te presentamos unas tabs que te guiarán a través de los acordes necesarios para dominar esta canción.

Las tabs para guitarra:

Tablatura intro:
e|----------------------------------------------------|
B|----------------------------------------------------|
G|----------5/7-5-----5-7-8-7----5----3----------------|
D|-------5---------5-------------7----5-3-0--------0---|
A|-----7------------------------------------------------|
E|----------------------------------------------------|

Acordes:
Verse:
Em C G D
Whiskey in the jar, oh, whiskey in the jar...
Em C G D
Whiskey in the jar, oh, whiskey in the jar...

Pre-Chorus:
C D Em G
Musha ring dum a doo dum a da, whack for my daddy-o
C D Em G
Whack for my daddy-o, there's whiskey in the jar...

Chorus:
G Em C D
Yeah, whiskey, whiskey, whiskey, whiskey in the jar
G Em C D
Yeah, whiskey, whiskey, whiskey, whiskey in the jar

Conclusión:

Con estas tabs y acordes, estarás listo para tocar "Whisky in the Jar" en la guitarra. Recuerda practicar lentamente al principio e ir aumentando la velocidad a medida que te sientas más cómodo con los acordes y la tablatura. No olvides prestar atención a la técnica, como los bends y los hammer-ons, para obtener ese sonido característico de la canción. ¡Diviértete tocando esta icónica melodía y disfruta de la música folk en todo su esplendor!

Tabs fáciles de Whisky in the Jar para principiantes en guitarra

Introducción

Whisky in the Jar es una canción popular que ha sido interpretada por numerosos artistas a lo largo de los años. Es un clásico del rock y su característica melodía y letras pegajosas la han convertido en una de las favoritas del público. Si eres un principiante en la guitarra y te encantaría aprender a tocar esta canción, estás en el lugar correcto. En este post, te proporcionaremos algunos tabs fáciles para que puedas comenzar a tocar Whisky in the Jar en tu guitarra sin complicaciones.

Te puede interesar:  Descubre el excepcional A. Smith Bowman Cask Fuerza Bourbon Batch 2: una joya destilada a la perfección

Tabs fáciles para principiantes

A continuación, te presentamos algunos tabs sencillos para tocar la intro y los acordes principales de Whisky in the Jar:

INTRO:

e|-----------------------------------------|
B|-----------------------------------------|
G|----------------------0------------------|
D|-----------2--0---------2--0------------|
A|--------2-------2--0--3-------3--2--0---|
E|-----0----------------------------------|

ACORDES:

   Em       D         C            G
e|------0--------2----------0------3-------|
B|------0--------3----------1------3-------|
G|------0--------2----------0------0-------|
D|------2--------0----------2------0-------|
A|------2--------x----------3------2-------|
E|------0--------x----------x------3-------|

Conclusión

Con estos tabs fáciles, podrás comenzar a tocar Whisky in the Jar en la guitarra sin problemas. Recuerda practicar lentamente al principio y luego ir aumentando la velocidad a medida que te sientas más cómodo con los acordes y la melodía. No dudes en experimentar con ritmos y variaciones para agregar tu propio toque personal a la canción. ¡Diviértete mientras aprendes y disfruta de tocar Whisky in the Jar en tu guitarra!

Índice de contenidos

Otros artículos que te pueden interesar

Deja una respuesta

Tu dirección de correo electrónico no será publicada. Los campos obligatorios están marcados con *

Subir